Note: Untuk mempermudah anda mempelajari Kunci Gitar Tabare Cardozo - Pobres Poderosos, anda bisa mengganti nada dasar kunci sesuai selera dan suara anda,caranya klik kunci yang ada inginkan:

Intro y casi toda la canción:

1|--------------------------------------
2|--------------------------------------
3|-------5-----5(7(5--------------------
4|---7-7-5-7-7-5------------------7(9-7-
5|--------------------7(10-7(10-7-------
6|--------------------------------------

1|--------------------------------------
2|--------------------------------------
3|-------5-----5(7(5--------------------
4|---7-7-5-7-7-5-------------------9-7--
5|--------------------7(10-7(10-7-------
6|--------------------------------------

?(? - ligado

El ?ritmo? que hace toda la canción menos cuando cambia es el
siguiente (lo recomiendo hacer con cejilla y con acordes de 5º):

LA - MI*( LA - RE - SOL --- MI*( SOL - DO - LA ---
MI*( LA - RE - SOL - MI*( SOL( MI* - DO - LA

El ?(? nuevamente es un ligado.
El * son la 5º y 6º al aire. No sabía cómo ponerlo

Hoy el viento venenoso está cambiando
Hoy levanta su cabeza un animal
Voy llevando la tormenta por el barrio
Voy corriendo por el pecho de un volcán

          RE                   LA
Tengo panteras y leones recorriendo la ciudad
          RE
Tengo hechiceros pecadores
        Mi(cejilla)
Para multiplicar, multiplicar el pan

Hoy el templo se está derrumbando
Hoy el miedo manda más que el rey
Hoy el fuego los está alcanzando
Hoy los quema el libro de la ley

Estalla el ojo del destino en la mansión de Satanás
Brilla una lágrima de vino
El tiempo gira, gira para atrás

Solo:   mantiene la misma base, y es en la escala de La. Es cortito y
fácil, pónganse las pilas y lo sacan en 5 minutos.

DMI                 Mi(cejilla)
Corre la ambición sin respiración
RE                     LA
Pesa su oro sucio y luminoso
Cuelga la traición, su desolación
Porque está llegando el día de los pobres poderosos

Cualquier   consulta pinchan donde dice ?subido por Santiago? y
les dice mi mail.

Loading...