Kunci Gitar
Aplikasi Kunci Gitar di Android Bisa Offline
Download
Note: Untuk mempermudah anda mempelajari Kunci Gitar Modern Baseball - Chl03K, anda bisa mengganti nada dasar kunci sesuai selera dan suara anda,caranya klik kunci yang ada inginkan:

Tabbed By: Fabio BlenderBR

        **Tuning: Half Step Down**
            ( Eb Ab Db Gb Bb Eb )

  ° E       ( x 7 9 9 0 0 )
  ° B/Eb    ( x 6 9 9 0 0 )
  ° Asus2   ( x 0 2 2 0 0 )
  ° E/A     ( x 0 9 9 9 0 )

  - Verse:

eb|---0-x--0-----0-x--0-----0-x--0-----0-x--0--|--|-0----------|
Bb|---0-x--0-----0-x--0-----0-x--0-----0-x--0--|--|-0----------|
Gb|---9----------9----------9----------9-------|x3|-2----------|
Db|---9----------9----------9----------9-------|--|-2----------|
Ab|-7---------6--------------------------------|--|-0----------|
Eb|----------------------9----------7----------|--|------------|

         I’d rather spend my evening
         Talking to Chloe on Twitter
         Than having you come over
         So it’ll be like old times
         But I know that you don’t give a fuck
         Cause you're knee deep in your iPhone

         But Now that you saw my tweets
         You know that I’m home
         Buried in my cell phone
         Tryna’ get a hold of someone new
         Instead of hanging out with you
         And your high school stories

         But you sure know how to get right to me
         With all those Facebook statuses
         About relationships and such
         Poor grammar is a must
                               Asus2
         But I trust that you can do it

  - Chorus:

E                      B/Eb
But I couldn’t give a fuck
                     Asus2
Whether you give a fuck or not
E              B/Eb
Rip my eye sockets out
     Asus2
Make me regret ever going out
       E                        B/Eb
But I know I’ll make it out of here alive
    Asus2
As long as I don’t watch your life
  E               B/Eb
Unfold before my very eyes
           E                       A
Yeah, you told this high school story
         E         E/A
One too many times for me

You know I’d rather

  - Outro:

eb|---0-x--0-----0-x--0-----0-x--0-----0-x--0--|
Bb|---0-x--0-----0-x--0-----0-x--0-----0-x--0--|
Gb|---9----------9----------9----------9-------|
Db|---9----------9----------9----------9-------|
Ab|-7---------6--------------------------------|
Eb|----------------------9----------7----------|

         I’d rather spend my evening
         Talking to Chloe on Twitter
         Than having to look you right in your eyes

__________
Hope you liked!

Tabbed by: Fabio BlenderBR

Loading...

Kunci Gitar Lainnya:

close