Kunci Gitar
Aplikasi Kunci Gitar di Android Bisa Offline
Download
Note: Untuk mempermudah anda mempelajari Kunci Gitar Matchbox Twenty - Our Song, anda bisa mengganti nada dasar kunci sesuai selera dan suara anda,caranya klik kunci yang ada inginkan:

G                                   Bm
I don't know why sometimes we seem so apart

                      C
Sewn together with a broken heart

                          D
I try to see you but it's getting dark

G                                 Bm
Words keep flowing out I wonder what they mean

                              C
You're like a little piece of kerosene

                              D
But girl you've always been a friend to me

pre chorus lick
e--8-7---8-7---8-7-8-7---8-7---8-7-8-7---8-7---8-7-8-7---8-7---|
b------8-----8---------8-----8---------8-----8---------8-----8-|
g--------------------------------------------------------------|

            Am                   C         D
And I been too proud sometimes chasing fault lines

chorus lick
e-----------------------------------------------------------------------|
b-----------------------------------------------------------------------|
g--5-5-5-5-5--5-5----4-4-4-4-4-4--------5-5-5-5-5--------5-5-------5-5--|
d-----------------7-----------------5h7----------7---5h7-------5h7------|
a-----------------------------------------------------------------------|
e-----------------------------------------------------------------------|

G                           Bm
Oh no, I'm gonna be there always

                    Am
After the pain has gone away the feeling is so strong

C                     D
This can be our song this can be our song

G                           Bm
Oh no I'll never make you cry again

                      Am
I'm gonna set things right again and I won't let 'em go wrong

C                     D
This can be our song this can be our song

e--------------------------------|
b--------------------------------|
g--7---7-7--7---7---7---7-7-7----|
d--7h9-9-9--7h9-9---7h9-9-9-7h9--|
a--------------------------------|
e--------------------------------|

G(no chord)                         Bm
I don't know if someone else could handle me

                                C
Well, I don't know what I'm supposed to be

                        D
You're the only one who really sees, you get me

G                                 Bm
I feel something growing deep inside of me

                C                           D
What I say and what I mean always seem to disagree

pre chorus lick
e--8-7---8-7---8-7-8-7---8-7---8-7-8-7---8-7---8-7-8-7---8-7---|
b------8-----8---------8-----8---------8-----8---------8-----8-|
g--------------------------------------------------------------|

            Am                       C                   D
So help me through this hard time, change these fault lines

chorus lick
e-----------------------------------------------------------------------|
b-----------------------------------------------------------------------|
g--5-5-5-5-5--5-5----4-4-4-4-4-4--------5-5-5-5-5--------5-5-------5-5--|
d-----------------7-----------------5h7----------7---5h7-------5h7------|
a-----------------------------------------------------------------------|
e-----------------------------------------------------------------------|

G                           Bm
Oh no, I'm gonna be there always

                    Am
After the pain has gone away the feeling is so strong

C                     D
This can be our song this can be our song

G                           Bm
Oh no I'll never make you cry again

                      Am
I'm gonna set things right again and I won't let 'em go wrong

C                     D
This can be our song this can be our song

D         D           D         D
    Oh,oh,oh   oh,oh,oh

chorus lick
e-----------------------------------------------------------------------|
b-----------------------------------------------------------------------|
g--5-5-5-5-5--5-5----4-4-4-4-4-4--------5-5-5-5-5--------5-5-------5-5--|
d-----------------7-----------------5h7----------7---5h7-------5h7------|
a-----------------------------------------------------------------------|
e-----------------------------------------------------------------------|

G(chorus lick only)         Bm
Oh no, I'm gonna be there always

                    Am
After the pain has gone away the feeling is so strong

C                     D
This can be our song this can be our song

G(full band return)             Bm
Oh no I'll never make you cry again

                      Am
I'm gonna set things right again and I won't let 'em go wrong

C                     D
This can be our song this can be our song

G       C
  Oh   oh   (This can be our song, this can be our song)

G       C
  Oh   oh   (This can be our song, this can be our song)

G               C
  Oh no, oh no (This can be our song, this can be our song)  

Loading...

Kunci Gitar Lainnya:

close