Kunci Gitar
Aplikasi Kunci Gitar di Android Bisa Offline
Download
Note: Untuk mempermudah anda mempelajari Kunci Gitar Matchbox Twenty - All Your Reasons, anda bisa mengganti nada dasar kunci sesuai selera dan suara anda,caranya klik kunci yang ada inginkan:

B
Bah-da-da da da da da da-da da

E
Bah-da-da da da da da da-da

B
Bah-da-da da da da da da-da da

E
Bah-da-da da da da da da-da

B                       E
Why don't you just go away

B                       E
I cant seem to get my head straight

B                           E
There's so much I need to say

B                   E
It could take all day

          B
But what you got I don't need it

        E
I can't listen to all your reasons

B
Wake up I don't feel it

        E
I can't listen to all your reasons

B                           E
Your bad mood just ties my hands

e-14-12-11---------------------
b----------12--12----9-12-9----
g-----------------11--------11-
d------------------------------

B                         E       
Turn my cartwheels into headstands

e-14-12-11----------------9-11-
b----------12--12----9-12------
g-----------------11-----------
d------------------------------

B                       E
I've done everything I can

      B     E
Gave all I had

          B
But what you got I don't need it

        E
I can't listen to all your reasons

B
Wake up I don't feel it

        E
I can't listen to all your reasons

G#m         F#
Why-ee-eye-eye

          E
You don't help me now

E             E
So worn down so torn up  

E
Still in love

this is played in lieu of chords for the next section                                                            
e-----------------------------------------------------------------------
b-16--16-16--16-16--14h16-16-16--16-16--14h16-16-16--16-16--17-17-17-16-
g-16--16-16--16-16--16----16-16--16-16--16----16-16--16-16--16-16-16-16-
d-----------------------------------------------------------------------
a-----------------------------------------------------------------------
e-----------------------------------------------------------------------

e-----------------------------------------------------------------------
b-16--16-16--16-16--14h16-16-16--16-16--14h16-16-16--16-16--17-17-17-17-
g-16--16-16--16-16--16----16-16--16-16--16----16-16--16-16--16-16-16-16-
d-----------------------------------------------------------------------
a-----------------------------------------------------------------------
e-----------------------------------------------------------------------

these next 4 lines are listed with chords however no chords are played

          B
But what you got I don't need it

        E
I can't listen to all your reasons

B
Wake up I don't feel it

        E
I can't listen to all your reasons

B
Woman I don't need it

        E          
I cant listen to all your reasons

B
Wake up I don't feel it  

        E
I can't listen to all your reasons

B                 D#           F#
Bah-da-da da da da da da-da da
Why                   Tell me why-ha-high       

E                       C#m
Bah-da-da da da da da da-da
                        Tell me why-ha-high   

B                 D#           F#
Bah-da-da da da da da da-da da
                    Tell me why-ha-high          

E                       C#m               E
Bah-da-da da da da da da-da
                Oh baby tell me why-ha-high   

Loading...

Kunci Gitar Lainnya:

close