) Chord Madina Lake - One Last Kiss (ver 5) Dari Nada Dasar G-SHARP - Kunci Gitar Id
Note: Untuk mempermudah anda mempelajari Kunci Gitar Madina Lake - One Last Kiss (ver 5) (Nada Dasar G#), anda bisa mengganti nada dasar kunci sesuai selera dan suara anda,caranya klik kunci yang ada inginkan:

Key: G

Tuning: Standard EADGBe

Chords used:
G - x68886
D - x13331
Em - x35543
C - 466544
Am - 133111
Bm - 355333

Intro:
G

Distortion: Em--Eb--Cm

Guitar 2:
                  Em
e|-------------------------------------
B|-------------------------------------
G|-5-5--5-5--5/8--5-5--5-5--5/8--10-10-
D|-x-x--x-x--x/x--x-x--x-x--x/x---x--x-
A|-3-3--3-3--3/6--3-3--3-3--3/6---8--8-
E|-------------------------------------

        G
e|---------------
B|---------------
G|-8-8--8-8--8-8-
D|-x-x--x-x--x-x- x2
A|-6-6--6-6--6-6-
E|---------------

                  Em
e|------------------------------------
B|------------------------------------
G|-5-5--5-5--5/8--8-8-8-8--8-8-8--8-8-
D|-x-x--x-x--x/x--x-x-x-x--x-x-x--x-x-
A|-3-3--3-3--3/6--6-6-6-6--6-6-6--6-6-
E|------------------------------------

Verse 1:
G                     Am             Em
  She looked at me her eyes were watering
That's when I knew that this was about to end
G                     Am                 Em
Frozen in that moment, Time was standing still
I could feel my heart, sinking, fragile

Piano:
        G             Am                     Em
e|---6--4--3--4-|------------6---|---6--4--3--4---6--4----6---
B|--------------|----------------|----------------------4---4-
G|--------------|-----8-7--8---8-|----------------------------
D|--------------|---8------------|---------------------------- x2
A|-6------------|-8--------------|-3------------3-------------
E|--------------|----------------|----------------------------

Bass:
  G   Am   Em
G|---|---|---
D|---|---|---
A|-6-|-8-|-3- x2
E|---|---|---

Refrain 1:
    G
Goodbye, She said
  D       Em
I went and found somebody new

Guitar 2: x means palm mute
                      G                         D
e|----------------------------------------------|---
B|----------------------------------------------|---
G|-8-8--8-8-----8--7----------8-8--8-8-----8--7-|-3-
D|-8-8--8-8--8---------10--8--8-8--8-8--8-------|-3-
A|-6-6--6-6-------------------6-6--6-6----------|-1-
E|----------------------------------------------|---
    x x   x x                   x x   x x

                  Em
e|-------------------------------------
B|--------------4--3--1----------------
G|-5-5--5-5--3-----------3--5-5-5-5--5-
D|-5-5--5-5-----------------5-5-5-5--5-
A|-3-3--3-3-----------------3-3-3-3--3-
E|-------------------------------------
    x x   x x

Chorus:
      C             D
And i gave you every waking moment
  Em
I gave you everything you wanted
G   C           D             Em Eb Cm
And now, I know your giving me up

Guitar 2:
          C               D                       Em                 G
e|----------------|--------10--11-|------------------------10--11-|----
B|----11--9--8--9-|----11---------|----11--9--8--9----11----------|----
G|----------------|---------------|-------------------------------|----
D|----------------|---------------|-10----------------------------|-13-
A|-11-------------|-13------------|----------------10-------------|----
E|----------------|---------------|-------------------------------|----

          C               D                     Em
e|----------------|----------------|-------------------------
B|----11--9--8--9-|----11--9--8--9-|----11--9--8--9--8--8--8-
G|----------------|----------------|-------------------------
D|----------------|----------------|-10----------------------
A|-11-------------|-13-------------|-------------------------
E|----------------|----------------|-------------------------

Verse 2:
G                     Am             Em
  She walked away and i could hardly breath  
Turn around and fell down to my knees
G                     Am           Em
  I'm shivering as the truth is settling
I'm sure tomorrow is nothing to do  

Refrain 2:
  G
I knew someday
    D   Em
So If I found someone else's lame
      G
But before, You go
D         Em
Could you just leave  
me one more kiss?  

(Repeat Chorus)

        C         D
And i, Can't lie still
            Em
When theres someone else beside you
        C       D  
And i, Can cry still
        Em
Cuz i'm all alone this time
i'm all alone this time  
i'm all alone this time  

Bridge:
  G             Bm
I remember when you were falling
    Em               D           G
And i was their just holding onto you
        Bm
And i remember all those
  Em                   D
Scars i wear that you carved in me  

(Repeat Chorus)

Outro:
        C         D
And i, Can't lie still
            Em
When theres someone else beside you
        C       D  
And i, Can cry still
        Em
Cuz i'm all alone this time
i'm all alone this time  
i'm all alone this time  

Loading...