Note: Untuk mempermudah anda mempelajari Kunci Gitar Machuca - Feliz Cumpleaños Mama, anda bisa mengganti nada dasar kunci sesuai selera dan suara anda,caranya klik kunci yang ada inginkan:

Intro : A - F#m

A
Feliz cumpleaños mama
F#m
todos juntos en la pieza
A                   F#m       A - F#m
el desayuno van a preparar

      D          A
Por mientras mejor me baño
   E               B
total ya se que viene despues
      D          A
Por mientras mejor me baño
   E               B
total ya se que viene despues
   D       A        F#m
total ya se que viene despues

A mama nadie le ayuda
empezamos a pelear
y vuelvo de la ducha
el desayuno ya se enfrio
mama esta llorando
y el resto de la familia
parece que no tiene vida
feliz cumpleaños mama

Por mientras mejor me baño ....

riff :

     A                      F#m
e --/-9---9--12--9--12--9--14--12--9------9--12--9----------
b --/-10------------------------------12------------12------
g ----------------------------------------------------------

    A                 F#m         A                     F#m
e --9---9--12--9--12--14--17----9--9--12--9--12--9--14--12--
b --10--------------------------10--------------------------
g ----------------------------------------------------------

                          A                    F#m     D
e --9------9--12--9-------9---12--9--12--9-----9------------------
b -----12------------12---10----------------12----/--7--7--10--7--
g ------------------------------------------------/--7------------

           A                            D                 A
e ------------------------------------------------------9--5---
b --10--7--12--10--7-----7--10--7------7--7--10--7--10---------
g --------------------9------------7---7-----------------------

    Bm     A   F#m    (E - F# con sexta cuerda )
e --7--7--5---------------------------------
b -----------7-----7-----7-----7-----7------
g --------------6-----6-----6-----6-----6---

Nota : el riff esta burdamente expresado en la tab, para tocarlo bien hay
que escuchar el disco y ponerle talento a los dedos para poder mejorarlo.

Acordes :

A     : 5 7 7 x x x
F#m   : 2 4 4 x x x
D     : x 5 7 7 x x
A     : 5 7 7 x x x
E     : x 7 9 9 x x
B     : 7 9 9 x x x

Loading...