Note: Untuk mempermudah anda mempelajari Kunci Gitar Kutless - Shut Me Out, anda bisa mengganti nada dasar kunci sesuai selera dan suara anda,caranya klik kunci yang ada inginkan:

                              SHUT ME OUT
                               (Kutless)

Tuning: (eb-Bb-F#-Db-Ab-Db)

pm = palm mute
\ = slide up

Intro:
                                          pm * *
eb---------------------------------------------------------|
Bb---------------------------------------------------------|
F#---7----------7-----------7------------------------------|
Db-0-7-5-7-3--0-7--5-7-3--0-5-5-7-3--8-8-8-8-0-0-10\-------| (X1)
Ab-0-5-5-7-3--0-5--5-7-3--0-5-5-7-3--8-8-8-8-0-0-10\-------|
Db-0---5-7-3--0----5-7-3--0---5-7-3--8-8-8-8-0-0-10\-------|

V1: (pm)
D         C                         G
  Tell me something I dont already know
                     D                                         D
I know that you cant stand these things I'm preaching in the streets
                 C                        G
But how can I contain the truth I hold inside
                     D                            
With all the hurting people that I see  

Pre-Chorus:

eb--------| Bb--------|
F#-7-9-10-|
Db-7-9-10-|        
Ab-5-7-8--|                       
Db--------|   G G (STOP)
   so I dont mind
                  D D (STOP)                 G G (STOP)
Putting up with you,    and all the things you say
                 C (LET RING)
I'm not about to stop or even change my ways

Chorus: (Intro Riff)

Theres nothing you can say
That will take me away from this life
Theres nothing you can do
To shut me up when I'm speaking the truth

V2: (pm)
D             C                   G
  You may not like all I have to say
                        D                                D
But you cant prove that everything is filled with empty words
          C                         G
I know my life and inside how I've changed
  D                                          
A testimony to the truth I speak
       (Pre-Chorus then Chorus)

Bridge:
  eb-----------------------------------------------------------|
Bb-----------------------------------------------------------|
F#-----------------------------------------------------------|
Db-9--9--9--9---0--0--0--0--5-7-11---9--9--9--9---0--0--0--0-|
Ab-9--9--9--9---0--0--0--0--5-7-11---9--9--9--9---0--0--0--0-|
Db-9--9--9--9---0--0--0--0--5-7-11---9--9--9--9---0--0--0--0-|

eb------------------|
Bb------------------|
F#------------------|
Db--5-7-11--9-8-5-0-| (Repeat Chorus)
Ab--5-7-11--9-8-5-0-|
Db--5-7-11--9-8-5-0-|             

Loading...