Note: Untuk mempermudah anda mempelajari Kunci Gitar HUsker DU - Every Everything, anda bisa mengganti nada dasar kunci sesuai selera dan suara anda,caranya klik kunci yang ada inginkan:

Verse Chords:
Am X02210 (hammer on & off B string)   G1 32003X   G 320003

Chorus Chords:
Bm X0443X   Csus2 X35533   Dsus2 X57755

Intro Riff:

    Am                                                     D
e:-------------------------------------------------------------------------|
B:--------------------------------------------------------3-3-3-3-3-3-3-3--|
G:--2--2---------2----2--2---------2----2--2---------2----2-2-2-2-2-2-2-2--|
D:--2--2----2----2----2--2----2----2----2--2----2----2----0-0-0-0-0-0-0-0--|
A:--0--0----3---------0--0----3---------0--0----3--------------------------|
E:-------------------------------------------------------------------------|

E Riff:

  (hold)
e:--0------|
B:--3b5----|
G:---------|
D:---------|
A:---------|
E:---------|

Chorus
    Am                   Bm             Csus2         Dsus2
e:--0--0------0-0-0-----2--2--2-2-2----3--3--3-3-3---5--5--5-5-5--|
B:--1--1------1-1-1-----0--0--0-0-0----3--3--3-3-3---5--5--5-5-5--|
G:--2--2------2-2-2-----4--4--4-4-4----5--5--5-5-5---7--7--7-7-7--|
D:--2--2------2-2-2-----4--4--4-4-4----5--5--5-5-5---7--7--7-7-7--|
A:--0--0------0-0-0-----0--0--0-0-0----3--3--3-3-3---5--5--5-5-5--|
E:----------------------------------------------------------------|
    heartbeat every     movement every moment every   sigh (every)

Intro Riff X2

Am                     G1
I've got something she wants
Am                     G
She's got something I need
Am               G1
Got a lock on my heart
                  E / ///E Riff
And she's got the keys

Am                     G1
Softly spoken words of love
Am                         G
These are what she says to me
Am         G1               E / ///E Riff
Honey be a man get off your knees

      Am
Every heartbeat
      
        Bm
Every movement
      Csus2
Every moment
      
      Dsus2
Every sigh

      Am
Every heartbeat
      Bm
Every movement
      Csus2
Every moment
      Dsus2
Every sigh
      E   / ///     E Riff
Every everything

Something in my heart
Something in my arms
Fell in love with your
Possessive charms
Softly spoken words of love
This is what she says to me
Got a lock on my heart
And she's got the keys

      Am
Every heartbeat
      Bm
Every movement
      Csus2
Every moment
      Dsus2
Every sigh
      Am
Every heartbeat
      Bm
Every movement
      Csus2
Every moment
      Dsus2
Every sigh
      E   / ///     E Riff
Every everything

Solo:
Over verse chords

Then the following X3:

      Am
Every heartbeat
      Bm
Every movement
      Csus2
Every moment
      Dsus2
Every sigh
      Am
Every heartbeat
      Bm
Every movement
      Csus2
Every moment
      Dsus2
Every sigh

Ending with:

      Am
Every heartbeat
      Bm
Every movement
      Csus2
Every moment
      Dsus2
Every sigh
      Am
Every heartbeat
      Bm
Every movement
      Csus2
Every moment
      Dsus2
Every sigh
      E   / ///  
Every everything

Loading...