Note: Untuk mempermudah anda mempelajari Kunci Gitar Howie Day - She Says, anda bisa mengganti nada dasar kunci sesuai selera dan suara anda,caranya klik kunci yang ada inginkan:

Opening:
     
      Cadd9       C       Cmaj7       C       Cadd9       C       Cmaj7       C
---0-0-0-0-0--0-0-0--0-0-0-0-0--0-0-0--0-0-0-0-0--0-0-0--0-0-0-0-0--0-0-0---
---3-3-3-3-3--1-1-1--0-0-0-0-0--1-1-1--3-3-3-3-3--1-1-1--0-0-0-0-0--1-1-1---
---0-0-0-0-0--0-0-0--0-0-0-0-0--0-0-0--0-0-0-0-0--0-0-0--0-0-0-0-0--0-0-0---
---2-2-2-2-2--2-2-2--2-2-2-2-2--2-2-2--2-2-2-2-2--2-2-2--2-2-2-2-2--2-2-2---
---3-3-3-3-3--3-3-3--3-3-3-3-3--3-3-3--3-3-3-3-3--3-3-3--3-3-3-3-3--3-3-3---
---X-X-X-X-X--X-X-X--X-X-X-X-X--X-X-X--X-X-X-X-X--X-X-X--X-X-X-X-X--X-X-X---

Verse:
"Sweet is the side..."

      Cadd9       C       Cmaj7       C       Cadd9       C       Cmaj7       C
---0-0-0-0-0--0-0-0--0-0-0-0-0--0-0-0--0-0-0-0-0--0-0-0--0-0-0-0-0--0-0-0---
---3-3-3-3-3--1-1-1--0-0-0-0-0--1-1-1--3-3-3-3-3--1-1-1--0-0-0-0-0--1-1-1---
---0-0-0-0-0--0-0-0--0-0-0-0-0--0-0-0--0-0-0-0-0--0-0-0--0-0-0-0-0--0-0-0---
---2-2-2-2-2--2-2-2--2-2-2-2-2--2-2-2--2-2-2-2-2--2-2-2--2-2-2-2-2--2-2-2---
---3-3-3-3-3--3-3-3--3-3-3-3-3--3-3-3--3-3-3-3-3--3-3-3--3-3-3-3-3--3-3-3---
---X-X-X-X-X--X-X-X--X-X-X-X-X--X-X-X--X-X-X-X-X--X-X-X--X-X-X-X-X--X-X-X---

  Esus/Aadd9   Am       Asus       Am       Cadd9       C       Cmaj7       C  
---0-0-0-0-0--0-0-0--0-0-0-0-0--0-0-0--0-0-0-0-0--0-0-0--0-0-0-0-0--0-0-0---
---0-0-0-0-0--1-1-1--3-3-3-3-3--1-1-1--3-3-3-3-3--1-1-1--0-0-0-0-0--1-1-1---
---2-2-2-2-2--2-2-2--2-2-2-2-2--2-2-2--0-0-0-0-0--0-0-0--0-0-0-0-0--0-0-0---
---2-2-2-2-2--2-2-2--2-2-2-2-2--2-2-2--2-2-2-2-2--2-2-2--2-2-2-2-2--2-2-2---
---0-0-0-0-0--0-0-0--0-0-0-0-0--0-0-0--3-3-3-3-3--3-3-3--3-3-3-3-3--3-3-3---
---0-0-0-0-0--0-0-0--0-0-0-0-0--0-0-0--X-X-X-X-X--X-X-X--X-X-X-X-X--X-X-X---

Intro:
"That's why I'm wondering why you had to tell me..."
                  F         G         C     Am
------------------1--------3--------0------0--------------------------------
------------------1--------3--------1------1--------------------------------
------------------2--------0--------0------2--------------------------------
------------------3--------0--------2------2--------------------------------
------------------3--------2--------3------0--------------------------------
------------------1--------3--------X------X--------------------------------

Chorus:
"And when she says.."

    F   G   Am   C
---1---3---0---0---
---1---3---1---1---
---2---0---2---0---
---3---0---2---2---
---3---2---0---3---
---1---3---X---X---

Outro: (back to verse)

  Em   F   C   Em   F   \/ Begin Verse
---0---1---0---0---1---
---0---1---1---0---1---
---0---2---0---0---2---
---2---3---2---2---3---
---2---3---3---2---3---
---0---1---X---0---1---

Interlude: (after second chorus)

  Em   F   G   Am                                 Em   F
---0---1---3---0---                             ---0---1---
---0---1---3---1---                             ---0---1---
---0---2---0---2--- REPEAT 10X ...then end on   ---0---2--- ...and back to  
---2---3---0---2---                             ---2---3---     opening  
---2---3---2---0---                             ---2---3---
---0---1---3---X---                             ---0---1---

Kunci Gitar Lainnya: