Kunci Gitar
Aplikasi Kunci Gitar di Android Bisa Offline
Download
Note: Untuk mempermudah anda mempelajari Kunci Gitar Daniela Andrade - Dont Care, anda bisa mengganti nada dasar kunci sesuai selera dan suara anda,caranya klik kunci yang ada inginkan:

Tuning: Standard

Capo 1

[Chords used]
    Em   Am   Bm   Cmaj7 Dmaj7                                                 
e|--0---0---2---0------x-----|
B|--0---1---3---0------0-----|
G|--0---2---4---0------0-----|
D|--2---2---4---2------4-----|
A|--2---0---2---3------5-----|
E|--0------------------x-----|

[Verse]
Em                                   Em
Pick up your bags you've got some leavin' to do
        Am
I dont care about you
Am
Care about you
Em                                   Em
Word on the street you've got some growin' to do
        Am
I dont care about you
Am
Care about you
Bm                               Bm                               Am            Am
It's funny how money can make hateful words from honey sweet talking men
Bm                                  Bm                          (straight into Em intro part)
I can't say i'll miss you but i'll miss the face you wore when you left
Em                          Em                              Am           Am                               
Now didn't you ever learn not to break a heart you never earned
Em                          Em                              Am           Am
My mama said that every man is only worth his unbroken word
Bm                                     Bm                                Am          Am
So I can't say i'll miss ya, but i'll miss the face you wore when you left
Bm                                Bm                                     Am          
And I promise I wont forget ya, wont forget the things you made me regret
Am           (straight into Em intro part)
Hey yeah eh eh

[Bridge]
      Cmaj7        Dmaj7         Em
e|---------------------------------------------------------------------------|
B|---------------------------------------------------------------------------|
G|--------0-----------0------------0--------0--------------------------------|
D|----2-----2-----4-----4------2-----2---2----2------------------------------|
A|--3---3-----3/5---5-----5\-------------------------------------------------|
E|---------------------------0---0-----0---0---------------------------------| (x8)

        Am
I dont care about you
Am
Care about
Am           Em         Em(strum 4x louder)
Care about you youu woahh
        Am
I dont care about you
Am
Care about
Am           Em
Care about you
Em                                   Em
Pick up your bags you've got some leavin' to do
        Am
I dont care about you
Am
Care about you-hoo hoo

Loading...

Kunci Gitar Lainnya:

close