Kunci Gitar
Aplikasi Kunci Gitar di Android Bisa Offline
Download
Note: Untuk mempermudah anda mempelajari Kunci Gitar 3 Doors Down - The Road I'm On, anda bisa mengganti nada dasar kunci sesuai selera dan suara anda,caranya klik kunci yang ada inginkan:

Intro:

--------------------------------0-------------------------------------0------|
-----------------1p0------------1-----------------------------1p0-----1------|
---------------------0-------2--0---------------------------------0---2------|
-----2-------0-------------2----2------------------2------0-----------2------|
---2-------2-------------0------3----3p2--0h2----2------2-------------0------|
-0-------3-------------------------------------0------3----------------------|
  Em         G         Am             C              
      G           Am

Verse:

                            Em     G       Am         C
She said life's a lot to think about sometimes
                    Em       G         Am       C
When you're living in between the lines
              Em           G           Am       C      
    G     Am
And all the stars they sparkle and shine every - day

                            Em     G     Am       C
He said life's so hard to move in sometimes
                    Em     G           Am       C
When it feels like I'm towin' the line
                  Em         G         Am C            
    C
And no one even cares to ask me why I feel this way

Chorus No. 1:
C (X2)               Em     G
I know you feel helpless now
          Am       C           Em   G   Am   C
and I know you feel alone
            Em     G
That's the same road,
      Am     C             Em     G       Am
the same road that I am on, yeah

Verse (Same as first):

He said life's a lot to think about sometimes
When you keep it all between the lines
Of everything I want and I want to find, one of these days

Chorus No. 2:

What you thought was real in life
somehow steered you wrong
Now you just keep drivin' tryin' to find out
Where you belong

I know you feel helpless now
and I know you feel alone
That's the same road,
that same road that I am on

Solo (Same chords as chorus)

Bridge:

--------------------------------0-------------------------------------0------|
-----------------1p0------------1-----------------------------1p0-----1------|
---------------------0-------2--0---------------------------------0---2------|
-----2-------0-------------2----2------------------2------0-----------2------|
---2-------2-------------0------3----3p2--0h2----2------2-------------0------|
-0-------3-------------------------------------0------3----------------------|
  Em         G         Am             C              
      G           Am
                              REPEAT X2

What you thought was real in life
somehow steered you wrong
Now you just keep drivin' tryin' to find out
where you belong

Loading...

Kunci Gitar Lainnya:

close